Elektrische gitaar

De elektrische gitaar is een type muziekinstrument. Hij werd in 1931 gemaakt door George Beauchamp. Het is een snaarinstrument dat gewoonlijk met een plectrum en soms met de vingers wordt bespeeld. Hij maakt gebruik van zogenaamde "elektrische pickups", draadgewonden magneten die de trilling van de snaren omzetten in elektrische stroom. Deze elektrische stroom wordt dan naar een versterker gestuurd die hem in geluid omzet. Deze elektrische stroom kan ook worden veranderd om effecten te produceren. De belangrijkste onderdelen van een elektrische gitaar zijn de hals, de pickups, de stemmechanieken, de brug, de input, de body, de frets, de slagplaatbescherming, de volumeknoppen en de toonknoppen. Er kunnen ook andere onderdelen zijn die andere geluiden kunnen veranderen. Een normale elektrische gitaar heeft één hals met 6 snaren erop, hoewel er ook 12-snarige gitaren zijn en gitaren met meer dan één hals.

Gitaren worden in vele delen van de wereld door vele bedrijven gemaakt en verkocht. Ze kunnen met de hand worden gemaakt of in de fabriek. Enkele bedrijven die elektrische gitaren maken zijn Fender, Gibson, en Ibanez.

Epiphone Les Paul elektrische gitaar
Epiphone Les Paul elektrische gitaar

Inleiding tot het spelen

  • De snaren van een gitaar worden gewoonlijk gestemd in de toonsoorten EBGDAE (te beginnen bij de hoogst klinkende snaar).
  • Elektrische gitaren hebben gewoonlijk 21, 22 of 24 frets.
  • Als we van de kop naar de body gaan, zijn de noten E, F, F#, G, G#, A, A#, B, C, C#, D, D#. Elke fret dichter bij de body verhoogt de toonhoogte met een halve toon.
  • Het is normaal dat de vingers pijn doen van het fretten als je begint. De huid van de vingers zal hier snel aan gewend raken, afhankelijk van de hoeveelheid oefening.

Lezen van gitaar tablatuur

Veel gitaristen delen hun muziek tegenwoordig via een systeem dat tablatuur (algemeen bekend als 'tab') wordt genoemd. Tablatuur is een manier om noten voor een gitaar te lezen. Het is veel eenvoudiger dan muzieknoten, maar de meeste tabs ondersteunen geen ritme. Veel tabs zijn online of in boeken en tijdschriften te vinden.

Om gitaartab te lezen, is er meestal een notenbalk als deze:

hoog E---------------------------------------------------------------------------------------------
      B----------------------------------------------------------------------
      ---------------------------------------------------------------------------------------------
      D ---------------------------------------------------------------------------------------------
      A --------------------
laag E

---------------------------------------------------------------------------------------------

Elke regel vertegenwoordigt een snaar. Tab wordt altijd gelezen alsof de speler de gitaar op zijn schoot houdt, snaren naar boven. Elk nummer geeft dan aan op welke fret de vinger wordt geplaatst.

E----------------- 0------------------------------------------------------------------------------------------------------------------
B-----------------0------------------------------------------------------------------------------------------------------------------
G --1------------- 1 -----------------------------------------------------------------------------------------------------------------
D002 -----------2-----------------------------------------------------------------------------------------------------------------
A------ 2 ---------2--------------------------------------------------------------------------------------------------------
-----------------
------------------------------------------------------------------------------------------------------------------

Het bovenstaande schema zou zijn om een open E akkoord te spelen, waarbij je elke snaar afzonderlijk plukt, en dan het akkoord tokkelt. Als de noten direct boven elkaar staan, betekent dit dat je het akkoord moet tokkelen.

Sommige gitaarmuziek wordt zowel in muzieknotenformaat als in tabulatuur geschreven. De muzieknoten worden uitgeschreven, met de bijbehorende tabulatuur onder elke regel noten.


AlegsaOnline.com - 2020 / 2021 - License CC3